March 31, 2010

FTIsland - moonlight angel

Intro, verse, and chorus tab:

--------3------------3------------3--------3-----3---------
------3---3--------3---3--------3---3--------3-----3-------
----0-------0----0-------0----0-------0--------0-----0----- 
-----------------------------------------0-------------0---
---------------2------------3------------------------------
--3--------------------------------------------------------

G   G/B   Cadd9   Dsus4
Teong bin nae mameul anko dalryeoga
G   G/B   Cadd9   Dsus4
Eodinjido morul gotseuro
G   G/B   Cadd9   Dsus4
Nal ikkun apeun gieoksairo
G   G/B   Cadd9   Dsus4
Dashi neoui mosupmani

Cadd9  G                  G/B
           Can you hear me
          Cadd9          Dsus4
I don't want cry anymore
G             G/B        Cadd9   Dsus4
Gasum gadeuk goin neo
G               G/B
Please stay me oh
  Cadd9            Dsus4
I miss you everyday
G       G/B      Cadd9
Jichin nal anajweo


--------3----------3----------3------3-----3s5s3----
------3----------3----------3----------3---3s5s3----
----0----------0----------0--------------0----------
-----------------------------------0----------------
-------------2----------3---------------------------
--3-------------------------------------------------

G   G/B   Cadd9   Dsus4
Dathyeobeorin nae maeumeul ango
G   G/B   Cadd9   Dsus4
Ddeollinun du son kkot jabajun
G   G/B   Cadd9   Dsus4
Jogeuman neoui eokkaegidamyun
G   G/B   Cadd9   Dsus4
Sesangeun neul haengbokhaetji

CHORUS

| G  Bm | Cadd9  G | Em  D | Cadd9      D | Em  D | Cadd9     D | Em  D | Cadd9 |

Cadd9                     G
I'm still with you my love

CHORUS

CHORUS

G   G/B   Cadd9   Dsus4
Teong bin nae mameul anko dalryeoga
G   G/B   Cadd9   Dsus4
Eodinjido morul gotseuro
G   G/B   Cadd9   Dsus4
Nal ikkun apeun gieoksairo
G   G/B   Cadd9   G
Dashi neoui mosupmani

2 comments:

  1. happyviewerAugust 20, 2010

    thanks so much ! i've been searching high and low for this!!!! thanks SOOO MUCCCHHHIIEEE!

    ReplyDelete
  2. THANKS :D I LOVE YOUR TABS! It sounds like the original! keep making more!

    ReplyDelete