March 31, 2010

FTIsland - The One

N.C.
As long as I’m with you I can’t go wrong
                          Cadd9  D                    G
Oh baby what you do to me  You’re the one

G   D/F#   Em   D   Cadd9   G   D            G   D/F#   Em   D   Cadd9   D   G

Em                      D          Cadd9                      G      D
I’ve been tryin’ to see you for such a long, long time
Em               D                      Cadd9          D     
Maybe I just have to face that I was out of line
            Em         D       Cadd9        Em            D          Cadd9    D
When it comes to lovin’ you, all the things that I would do

                                     G        D/F#        Em 
I’ve been waiting for this day for far too long
   D                Cadd9  G     D
I never could imagine it so strong
                            G/B     D          Em        
As long as I’m with you, I can’t go wrong
      D                Cadd9   D                    G     D/F#  G  D/F#    
Oh baby what you do to me  You’re the one

Em              D                   Cadd9             G    D
How I try to reach you, oh, in every way I can
        Em                  D                  Cadd9                   D
Baby but it’s hard to find a way to show that I’m your man
            Em         D       Cadd9        Em            D          Cadd9    D
When it comes to lovin’ you, all the things that I would do

CHORUS

            Em         D       Cadd9        Em            D          Cadd9    D   E
When it comes to lovin’ you, all the things that I would do

A   E/G#   F#m   E   Dadd9   A   E           A/C#   E   F#m   E   Dadd9   E  

                                     A     E/G#  A  E/G#  F#m   
I’ve been waiting for this day for far too long
   E                Dadd9  A      E
I never could imagine it so strong
                            A/C#   E          F#m      
As long as I’m with you, I can’t go wrong
      E                 Dadd9   E                    
Oh baby what you do to me 

                                     A     E/G#  A  E/G#  F#m   
I’ve been waiting for this day for far too long
   E                Dadd9  A      E
I never could imagine it so strong
                            A/C#   E          F#m      
As long as I’m with you, I can’t go wrong
      E                Dadd9   E                     A     E/G#  A  E/G# F#m 
Oh baby what you do to me  You’re the one
     E                 Dadd9   E                     A    
Oh baby what you do to me  You’re the one


                                                                                                                             

Tabs:

First Solo:

------------------------------------------------------------
------------------------------------------------------------
--5--s12------11--12--s14--12------11--12--s14--12----------
----------12-------------------12-------------------12h14---
------------------------------------------------------------
------------------------------------------------------------

---------------------------------------------------------------------------
------12b13r12--10---------------------------------------------------------
--------------------12--11--12--14--12--12------11--12--s14--14b16r14--12--
--14----------------------------------------12-----------------------------
---------------------------------------------------------------------------
---------------------------------------------------------------------------

---------------------------
---------------------------
--11--12--s14--12--11--12--
---------------------------
---------------------------
---------------------------


When it comes to loving you, All those things that I would do

  Em       D        Cadd9      Em       D        Cadd9
-----------------2--------3-------------------2--------3---
--------0------3---------------------0------3--------------
------0------2----------0----------0------2----------0-----
----2------0----------2----------2------0----------2-------
--------------------3----------------------------3---------
--0----------------------------0---------------------------


After first chorus:

--------------------
--------------------
--5s12--11--12--11--
--------------------
--------------------
--------------------


Middle Solo:

-----------------------------------------------------------------------------
-----------------------------------------------------------------------------
-16b18--b18--b18--b18r16--14------13--14--s16--14------13--14--s16--14-------
------------------------------14-------------------14------------------14s16-
-----------------------------------------------------------------------------
-----------------------------------------------------------------------------

-------------------------------------------------------------
------14b15r14--12-------------------------------------------
--------------------14--13--14--16--14--14-14-14-14--13--14--
--16---------------------------------------------------------
-------------------------------------------------------------
-------------------------------------------------------------

-----------------------------------------------------------------------------
-----------------------------------------------------------------------------
--s16-16-16-16--14--16--s18-18-18-18--18--s19--18--16--14--14--14--13--14----
-----------------------------------------------------------------------------
-----------------------------------------------------------------------------
-----------------------------------------------------------------------------

---------------------------------------------------------------------
-------------17---------17-------17----------------------------------
--14--16b18------16b18------b18------16b18r16--14--13--14--s16--14---
---------------------------------------------------------------------
---------------------------------------------------------------------
---------------------------------------------------------------------

9 comments:

  1. Wow!
    Thanks for sharing this guitar chord.
    Never know that someone already had this chord!

    Thank you so much for sharing this with us.
    Can I take it?! ^_^

    ReplyDelete
  2. AnonymousJuly 20, 2010

    Thank you! I'm a big fan of FT island! :)

    -onthepiano

    ReplyDelete
  3. thanks!
    been looking for FTI guitar chords.. esp. this song. i'm a fan of FTI & CNB.
    hope you could share CN Blue guitar chords too ;)

    ReplyDelete
  4. AnonymousMay 02, 2011

    hello :)
    thx for sharing this chord.
    can u share FTI's Let Go too?
    that song is AWESOME :)

    ReplyDelete
  5. ^ You can find the official sheet music with chords at PianoFiles.com (link on the left) and 4shared.com (search for FT Island pdf).

    ReplyDelete
  6. AnonymousMay 22, 2012

    What's the meaning of b n r ?

    ReplyDelete
    Replies
    1. b means to bend the string upward. For example, 16b18 means bend the string at the 16th fret upward until it makes the same pitch as you would hear if you just played the string at the 18th fret. r means to bring the string back down from the bent up position (it does not mean to take your finger off the fret, but just to release the bend).

      Delete