March 31, 2010

FTIsland - 내 오랜 그녀와 해야 할 일 (The Thing I Should Have Continued With Her)

Intro chords:  G   Em   C   D   (repeat)

Intro tabs:

---------------------------------------------------
---------------------------------------------------
---------------------------------------------------
--4s5--5-5--7--s9-------1s2--2-2--4--5--5s9--5s7---
-------------------9-------------------------------
---------------------------------------------------

-----------------------------------------------------------
-----------------------------------------------------------
-----------------------------------------------------------
--4s5--5-5--7--s9-----1s2--2-2--4--5--4--2--0-----0--------
-------------------9---------------------------3-----0h2---
-----------------------------------------------------------

G    Em   C   D
Shinhun yeohaengeul ddeona deut kkocheul dan charo dalryeobogil
G    Em   C   D
Naeil haeojil yeonincheorum majimak pyeonji sseo bogil

Dm   G   C   F
Cheoeum mannatdeon keu nalgwa ddokgateun harureul bonaebogil
A7   D
Seollaeim majeo dashi daeryeowa oh oh oh oh

G   Em   C   D
Urin neomu ooraedweseo urin neomu iksokhaejyeoseo
G   Em   C   D
Ibmatchumdo itkae dwiko saranghandan mal sokeuro haji
G   Em   C   D
Yeibbun yeojareul bokae dwiko honjain chingu bureoweohako
G   Em   C   D
Gakkumsshikeun miweojyeodo naegaen neo bbuniya oh oh oh oh

G   Em   C  
Keodaran jido pyeonchiko gati gatdeon goht
D   G   Em  
Pyoshihaki chueok eobnun goht hana eobkae
C   D
Gati yeohaengeul ddeonagi

Dm   G   C   F
Mollae sseowatdon ilkireul saljjak haruman bakkweoboki
A7   D
Nuneul matchuko saranghaejuki oh oh oh oh

G   Em   C   D
Urin neomu oraedwaeseo urin neomu iksokhaejyeoseo
G   Em   C   D
Ibmatchumdo itkae dwiko saranghandan mal sokeuro haji
G   Em   C   D
Yaebbun yeojareul bokae dwiko honjain chingureul bureoweo hago
G   Em   C   D
Gakkumsshikun miwojyeodo naegaen neobbuniya oh my love

G   Em   C   D  (repeat)

-7s10--0---------7--10----------
----------8--10---------10--8---
--------------------------------
--------------------------------
--------------------------------
--------------------------------

-------------------------------------------------------
-------8-----8--s12s10--10s8--8s7--7s5--5s3--2h3p2-----
-7--9-----7-----------------------------------------3--
-------------------------------------------------------
-------------------------------------------------------
-------------------------------------------------------

----------------------------------3----0--10--7----------------------
--------------------------3--3h5-----------------10--8--10--8--------
------------------0--0h4---------------------------------------9--7--
----------0--0h2-----------------------------------------------------
-------2-------------------------------------------------------------
--0h3----------------------------------------------------------------

----------------------------------------------------------
----------------------------------------------------------
--9--7------------------------7-------------------7b9r7---
--------9--7-------------7h9-----5h7--5--7--9--7----------
--------------10--7--10-----------------------------------
----------------------------------------------------------

Dm   G   C   F
Barae kkot matneun shinbal cheorum neo eobin na eodido motka
A7   D
Mareun an haedo nae mam itjima oh oh oh oh

G   Em   C   D
Sarangeun kkot mallo halkae itji anhko jeonhwa jal halkae
G   Em   C   D
Haeojil ddaenun ibmatchuko haruae hanbeon kkot ana julkae
G   Em   C   D
Neoui chingurel gieokhako neoui sudauae kwi gieulilkae
G   Em   C   D
Cheoumcheorum neol saranghae naegaen neobbuniya woo oh oh oh

No comments:

Post a Comment