May 7, 2010

Ayumi Hamasaki - Last Links

Dsus2   BbM7   F   C
Dsus2   BbM7   F   C
Dsus2   [Dsus2  Dm]   BbM7   F   C       
Dsus2   [Dsus4  Dm]   BbM7   F   C

Dsus2   BbM7   F   C
Mezame to tomo ni mado ni me o muke
Yawarakaku tsuyoku sashikomu hikari o
Mita ra nazedaka namida koboreta
Kikoeta n darou tashika ni kanjita n darou

Dm   Dsus4-Dm   C
Kyou no konna sora nara kitto umaku
Aruite ikeru ki ga suru n da

Dm  BbM7   C   F   F/E
Sou bokura wa kono aoi hoshi o
Fumishimete ikite ku n da yo
Kono sekai ni hirogari tsuzukeru
Subete no kanashimi wa iyasare naku tomo

Dsus2   BbM7   F   C
Utsumuita nara tachidomare ba ii
Susumu beki de wa nai to iu aizu na n darou

Dm   Dsus4-Dm   C
Kyou no sora wa takaku too sugiru kara
Umaku kokyuu ga deki nai yo

Dm  BbM7   C   F   F/E
Demo bokura wa kono aoi hoshi o
Fumishimete ikite ku n da yo
Kono sekai ni habikori tsuzukeru
Subete no ikari wa tomerare naku tomo

| Eb | Bb     C | Dm  C | Bb  F |
| Eb | Bb     C | Dm  C | Bb |

Dm   Dsus4-Dm   C
Kyou no konna sora nara kitto umaku
Aruite ikeru ki ga suru n da

Dm  BbM7   C   F   F/E
Ima bokura wa kono aoi hoshi o
Fumishimete ikite ku n da yo
Kono sekai ni mada nokotte iru
Ai o tashika ni dakishime nagara

Dm  BbM7   C   F   F/E
Kono sekai ni mada nokotte iru
Ai wa tashika ni koko ni nokotte ru

Dm   BbM7   F   C  

Dm   BbM7   F   C

Dsus2   Dm        

Dsus4   Dm 
Dsus2   Dm        

Dsus4   Dm

Ending tabs: (Dm  BbM7  F  C)


------------------------------------------------
--------6-------------3-------------------------
-----------7-------2-------------2----------5---
-----7----------3-------------3----------5------
--5------------------------3----------3---------
------------------------------------------------

---------------------------------------------------
--------6-------------3---------------------5--6---
-----------7-------2-------------2-------5---------
-----7----------3-------------3-------5------------
--5------------------------3-----------------------
---------------------------------------------------

(repeat)
Note: Chords in [brackets] are for second guitar.

No comments:

Post a Comment