June 27, 2010

Aya Kamiki - ミセカケの I Love You (Misekake no I Love You)

F#m7   A   
I try to give it up whenever but never forget you forever
DM7   E
I really really want you tonight but you never ever hold me tight
F#m7   A
I try to give it up whenever but never forget you forever
DM7   E
I really really want you tonight but you never ever hold me tight

F#m7   A   DM7   E
Hitomitojite yume no naka e sotto suberikonde
F#m7   A   DM7   E
Demo hontou no takaramono mitsukerarenai mama otona ni natteyuku

DM7   E   F#m7   E   DM7   E   F#m7  
Kakehiki no kotoba to tashikametai shinjitsu
E   DM7   E   F#m7   E   D#dim   C#
kisetsu wa nagarete toorisugita toshitemo wasurenai de ne eien ni...

DM7   E
Misekake no I love you hibiwareta I miss you
C#m7   F#m7
konna yoru wa omoimegutte
DM7   E
Yokubou dakeja kono hoshi mo tsuki mo kagayakanai kara
F#m7   E
tsunagiawaseteitai kuruoshiku
DM7   E   C#m7   F#m7
yubi ni saita shiroi hana wa utsukushikumo hakanaku midarechitteku
DM7   E
tomadoi ame ga nakinurete to orisugiru uso demo ii
DM7   E   F#m7
tada tsuyoku dakishimete saigo no melody

F#m7   A    DM7   E

F#m7   A   DM7   E
nanairo no hikari atsumete chiisa na yuuki ni kaeru
F#m7   A   DM7   E
Mada fumidasenai kooritsuita migi ashi tokehajimeta

DM7   E   F#m7   E   DM7   E   F#m7
Kizuguchi mo kaikan ni tamashii goto sasagete
E   DM7   E   F#m7   E   D#dim   C#
Afuredasu shizuku sono kuchibiru de fusagitomete imasugu...

DM7   E
Kanashimi no I love you kiekaketa I need you
C#m7   F#m7
konna yoru wa omoimegutte
DM7   E  
Onaji kotobaja nimo todokanai
F#m7   E
kokoro goto kowashite hoshii no ni hageshiku
DM7   E   C#m7   F#m7
yubi ni saita akai hana wa shizuka ni fukaku to ikakete yuku
DM7   E  
ameagari nijimo denai kono sora no shita ni hitori kiri
DM7   E   F#m
tada tsuyoku dakishimete saigou no melody

F#m   A   B   D   [4x]   C#
                                           Eien ni…

DM7   E
Misekake no I love you hibiwareta I miss you
C#m7   F#m7
konna yoru wa omoimegutte
DM7   E
Yokubou dakeja kono hoshi mo tsuki mo kagayakanai kara
F#m7   E
tsunagiawaseteitai kuruoshiku
DM7   E   C#m7   F#m7
yubi ni saita shiroi hana wa utsukushikumo hakanaku midarechitteku
DM7   E
tomadoi ame ga nakinurete to orisugiru uso demo ii
DM7   E   F#m7
tada tsuyoku dakishimete saigou no melody
                                     
F#m7   A   
I try to give it up whenever but never forget you forever
DM7   E
I really really want you tonight but you never ever hold me tight
F#m7   A
I try to give it up whenever but never forget you forever
DM7   E
I really really want you tonight but you never ever hold me tight


                                                                                                             

TABS

Intro/Outro

----------0------------------0------------------0-----------0---0---
--------0---0--------------0---0------------3-0---0-------0---0-----
------2-------2----------2-------2--------2---------2---------------
----2-----------2------2-----------2----0-------------2-2-----------
---------------------0----------------------------------------------
--2-----------------------------------------------------------------


[2x]


Verse

----------0------------------0------------------0-----------0---0---
--------0---0--------------0---0------------3-0---0-------0---0-----
------2-------2----------2-------2--------2---------2---------------
----2-----------2------2-----------2----0-------------2-2-----------
---------------------0----------------------------------------------
--2-----------------------------------------------------------------


[2x]

----------0--------------------------------0----------------------
----2---0---0-0------2-----0---------2---0---0-0------2-----0-----
--2---2------------2---2-1---------2---2------------2---2-1-------
-----------------4-----------2---4----------------4-----------2---
------------------------------------------------------------------
------------------------------------------------------------------

[2x]

1 comment:

  1. Thank you so much for this!! Bookmarked this page! :D

    Is there any chance you could make the cords/tabs for Aya Kamiki's song "Mo Kimi Dake o Hanashitari wa Shinai" or "Youthful Diary"?

    ReplyDelete