July 27, 2010

FTIsland - soyogi

Download PDF: http://www.mediafire.com/?1054v2dzq3515c7

Intro

DbM7                          Ab
---------------------------------------------------------
--------6-------------6-------------4-------------4------
------5---5---------5---5---------5---5---------5---5----
----6-------6-----6-------6-----6-------6-----6-------6--
--4-------------4----------------------------------------
------------------------------4-------------4------------

DbM7                          Ab
------------------------------------------------6--4--3---------
--------6-------------6-------------4---------4---------4-------
------5---5---------5---5---------5---5-----5-------------5-----
----6-------6-----6-------6-----6-------6-------------------5---
--4-------------4-----------------------------------------------
------------------------------4-------------4-------------------

Verse 1

DbM7            Ebsus2        F7sus2         Fm7      F7sus2
----------------------------------------------------------------
--------6-------------6--------------8--------9--------8--------
------5---5---------8---8----------8---8--------8--------8------
----6-------6-----8-------8-----10-------10-------10-------10---
--4-------------6-------------8---------------------------------
----------------------------------------------------------------

DbM7            Ebsus2        F7sus2         Fm7      F7sus4
----------------------------------------------------------------
--------6-------------6--------------8--------9--------11-------
------5---5---------8---8----------8---8--------8---------8-----
----6-------6-----8-------8-----10-------10-------10------------
--4-------------6-------------8---------------------------------
----------------------------------------------------------------

DbM7            Ebsus2        F7sus2         Fm7      F7sus2
----------------------------------------------------------------
--------6-------------6--------------8--------9--------8--------
------5---5---------8---8----------8---8--------8--------8------
----6-------6-----8-------8-----10-------10-------10-------10---
--4-------------6-------------8---------------------------------
----------------------------------------------------------------

DbM7            Ebsus2         Fm7         
-------------------------------------------------------
--------6-------------6--------9------9------9----9----
------5---5---------8---8------8------8------8----8----
----6-------6-----8-------8----10-----10-----10---10---
--4-------------6--------------8------8------8----8----
-------------------------------------------------------

Verse 2

DbM7            Ebsus2        F7sus2         Fm7      F7sus2
----------------------------------------------------------------
--------6-------------6--------------8--------9--------8--------
------5---5---------8---8----------8---8--------8--------8------
----6-------6-----8-------8-----10-------10-------10-------10---
--4-------------6-------------8---------------------------------
----------------------------------------------------------------

DbM7            Ebsus2        F7sus2         Fm7      F7sus4
----------------------------------------------------------------
--------6-------------6--------------8--------9--------11-------
------5---5---------8---8----------8---8--------8---------8-----
----6-------6-----8-------8-----10-------10-------10------------
--4-------------6-------------8---------------------------------
----------------------------------------------------------------

DbM7            Ebsus2        F7sus2         Fm7      F7sus2
----------------------------------------------------------------
--------6-------------6--------------8--------9--------8--------
------5---5---------8---8----------8---8--------8--------8------
----6-------6-----8-------8-----10-------10-------10-------10---
--4-------------6-------------8---------------------------------
----------------------------------------------------------------

DbM7            Ebsus2        F7sus2         Fm7      F7sus4
-------------------------------------------------------8--------
--------6-------------6--------------8--------9----------11-----
------5---5---------8---8----------8---8--------8---------------
----6-------6-----8-------8-----10-------10-------10------------
--4-------------6-------------8---------------------------------
----------------------------------------------------------------

DbM7            Ebsus2         Fm7
---------------------------------------------------
--------6-------------6----------------------------
------5---5---------8---8--------------------------
----6-------6-----8-------8------------------------
--4-------------6----------------------------------
---------------------------------------------------

DbM7                      Cm7
Kimi wa soyogi nagara
Bbm7                AbM7
Azayaka ni iro zuki
Bbm7        Cm7  DbM7     Eb
Boku wo yurasu  toki ni terasu
DbM7                        Cm7
Kimi wo mamoreru nara
Bbm7                    AbM7
Subete sasageru kara
      Bbm7              Cm7
Koe ni (koe ni) naranai (naranai)
      DbM7               Eb
Koe ga mune ni hibiku
Always loving you

Guitar 1:

---------------------------------------------------------------------------
---------------------------------------------------------------------------
----------------------------------------------------------8----------------
--6----5--6--s8----s10----8--6--5--s6----5--6--s8----s10-----8--s10----6---
---------------------------------------------------------------------------
---------------------------------------------------------------------------

Guitar 2:

DbM7            Ebsus2        F7sus2         Fm7      F7sus2
----------------------------------------------------------------
--------6-------------6--------------8--------9--------8--------
------5---5---------8---8----------8---8--------8--------8------
----6-------6-----8-------8-----10-------10-------10-------10---
--4-------------6-------------8---------------------------------
----------------------------------------------------------------

DbM7            Ebsus2        F7sus2         Fm7      F7sus4
----------------------------------------------------------------
--------6-------------6--------------8--------9--------11-------
------5---5---------8---8----------8---8--------8---------8-----
----6-------6-----8-------8-----10-------10-------10------------
--4-------------6-------------8---------------------------------
----------------------------------------------------------------

Verse 3 same as verse 2

DbM7                    Cm7
Kawaru sekai no naka
Bbm7                 AbM7
Te wo toriatte ikuyo
Bbm7     Cm7  DbM7       Eb
Kono chiisana  kono yakusoku
DbM7                     Cm7
Kawaranai kono mama
Bbm7                    AbM7
Onaji yume wo miyou
    Bbm7          Cm7
Kitto (kitto) Kitto (kitto)
      DbM7                    Eb
Itsuka mune wo tsukamu
Always loving you

Guitar 1:

------------------------------------------11--13----------13--15------15--13--
--13----13-----10s11--9--8--s9----11--13--------------13----------16------13--
-----10----10-------------------------------------13----------------------13--
------------------------------------------------------------------------------
------------------------------------------------------------------------------
------------------------------------------------------------------------------

Guitar 2:

DbM7            Ebsus2        F7sus2         Fm7      F7sus2
----------------------------------------------------------------
--------6-------------6--------------8--------9--------8--------
------5---5---------8---8----------8---8--------8--------8------
----6-------6-----8-------8-----10-------10-------10-------10---
--4-------------6-------------8---------------------------------
----------------------------------------------------------------

DbM7            Ebsus2         Fm7
---------------------------------------------------
--------6-------------6----------------------------
------5---5---------8---8--------------------------
----6-------6-----8-------8------------------------
--4-------------6----------------------------------
---------------------------------------------------

        DbM7     Eb         Cm7  Fm7
Tomadoi nagara mayoi nagara
Bbm7       Cm7          Fm7
Soredemo tsunagu nukumori

  Fm      Fm7
------------------
------------------
--10--8-----------
----------10------
--------------8---
------------------
  oh      oh

        DbM7        Eb           Cm7  Fm7
Moshimo yori ga ashita wo kakushite mo
Bbm7                C7
Egaki tsuzukete iku kara (yeah)

DbM7                  Cm7
Ai wa soyogi nagara
Bbm7                AbM7
Azayaka ni iro zuki
Bbm7        Cm7  DbM7      Eb
Boku wo yurashi yagate mitasu
DbM7                        Cm7
Kimi wo mamoreru nara
Bbm7                    AbM7
Subete sasageru kara
      Bbm7              Cm7
Koe ni (koe ni) naranai (naranai)
      DbM7               Eb
Koe ga mune ni hibiku
                    DbM7                Cm7   Bbm7        AbM7
Always loving you (hitomo wo           kasanete)
                    DbM7                Cm7   Bbm7        AbM7
Always loving you (kokyuu wo           awasete)
                     Bbm7               Cm7   DbM7        Eb
Always loving you (sono te wo          tsunaide)
Always loving you

DbM7                          Ab
---------------------------------------------------------
--------6-------------6-------------4-------------4------
------5---5---------5---5---------5---5---------5---5----
----6-------6-----6-------6-----6-------6-----6-------6--
--4-------------4----------------------------------------
------------------------------4-------------4------------

DbM7                          Ab
------------------------------------------------6--4--3------------------
--------6-------------6-------------4---------4---------4-------------4--
------5---5---------5---5---------5---5-----5-------------5---------5----
----6-------6-----6-------6-----6-------6-------------------5-----6------
--4-------------4--------------------------------------------------------
------------------------------4-------------4-------------------4--------

1 comment:

  1. Yes sogoyi tabs/chords! Finally! Thank you so so much!!

    ReplyDelete