August 1, 2010

FTIsland - ミライジテンシャ (Mirai Jitensha)

(1) Db  Eb7  Gb  Db  Cm7  Bbm7  Eb7  Ebm7  Ab
Db  Eb7  Gb  Db  Cm7  Bbm7  Eb7  Ab  Db  Ddim (1)

Ebm                                      Db
ano hi no bokura no chiisana jitensha wa kaze ni nori
Ebm                                 Bbm7    Ab
mizutamari ni utsuru sekai mo kakenuketeita

     Gb         Db/F     Eb7               Db     Cm7
(2) te wo hanashi ta fuusen de uchuu made
Bbm7        Eb7      Ab                    Db   Ddim
tonde ikoutte omotta kodomo no koro (2)

Ebm                                     Db
nakamatachi wa jounetsu to akogare wo mune ni hime
Ebm                               Bbm7    Ab
suteki na yume to koibito wo sagashi teru

      Gb    Db/F     Eb7       Db        Cm7
(3) jibun nari ni aruki hajimeta michi
   Bbm7             Eb7           Ab
soshite ima kimi to kata wo narabete susumuyo (3)

    Db             Eb7  Gb         Db  Cm7 
mirai jitensha wa  onaji hayasa  de
Bbm7           Eb7       Ebm7   Ab
kyou mo ashita mo tobikoete yuku (4)
    Db        Eb7   Gb           Db   Cm7 
miageta sora mugendai no kyanpasu
Bbm7        Eb7  Ebm7         Ab              Db
puropera hiroge disukabarii mitsukeru tabi

(5) Db  Eb7  Gb  Db  Cm7  Bbm7  Eb7  Ab  Db  Ddim (5)

Ebm                                      Db
machi awase no kafe he isogu ashidori karoyaka ni
Ebm                               Bbm7   Ab
mitsuketa shisen hanikanda sono hohoemi

      Gb     Db/F       Eb7          Db      Cm7
(3) tsunaida te ni umareru no wa yuuki
   Bbm7               Eb7          Ab
konna fuu ni kimi to hagemashiaeru shiawase (3)

    Db             Eb7   Gb          Db  Cm7
mirai jitensha wa supiido wo age  te
Bbm7           Eb7       Ebm7   Ab
kyou mo ashita mo tobikoete yuku (4)
    Db         Eb7   Gb           Db  Cm7
yume no arika kyacchi suru reidaa
Bbm7   Eb7       Ebm7         Ab              Gb
enjin futatsu de disukabarii mitsukeru tabi

(6) Gb  Db/F  Ebm  Bbm7  Cm7-Db  Gb  Db/F  Ab  F (6)

                 Gb        Db/F              Eb7          Db  Cm7
(7) toki no naka de iro wo kaete utsuri yuku kisetsu (7)
   Bbm7             Eb7        Ab
sou kimi to dakara donna kiseki mo yoberusa

    Db             Eb7  Gb         Db  Cm7 
mirai jitensha wa  onaji hayasa  de
Bbm7           Eb7       Ebm7   Ab
kyou mo ashita mo tobikoete yuku (4)
    Db        Eb7   Gb           Db   Cm7 
miageta sora mugendai no kyanpasu
Bbm7        Eb7  Ebm7         Ab              Db                Ddim
puropera hiroge disukabarii mitsukeru tabi umidasu tabi
           Ebm7         Ab              Db               Ddim
sou jibun jishin wo mitsukeru tabi kanaeru tabi
       Ebm7          Ab              Db
kimi to mirai wo mitsukeru tabi

(8) Db  Eb7  Gb  Db  Cm7  Bbm7  Eb7  Ebm7  Ab
Db  Eb7  Gb  Db  Cm7  Bbm7  Eb7  Ab  Db (8)

________________________________________                             _________________

TABS 

(1)
---------------------------------------------------------------------------
------------------------------------------------------6-7-6-7-9------------
--6-8-6-8-6---6-8-6-8-s10-8---6-8-6-6-----6-6----6-8--------------6-5------
--------------------------------------6-8------8----------------------6----
------------------------------------------------------------------------6--
---------------------------------------------------------------------------

-----------------------------------------------------------------------
----------------------------------------------------6-7-9--------------
--6-8-6-8-6---6-8-6-8-s10-8---6-8-6-6-----6-6---6-8-------10-8-6--6s7--
--------------------------------------6-8-----8------------------------
-----------------------------------------------------------------------
-----------------------------------------------------------------------


(2)
--------6-----------------------------------------------
------6---6----------6------------8---------------------
----6-------6------6---6--------6---8--------6------5---
--6--------------6-------6----8-------8----6------5-----
---------------4------------6------------4------3-------
--------------------------------------------------------
                                     
----------------------------------4------------------------
--------6------------8----------4---4----------------------
------6---6--------8---8------5-------5----6--5--6--7--7---
------------6----8-------8---------------------------------
----8----------6-------------------------------------------
--6-------------------------4------------------------------


(3)
--------6-----------------------------------------------
------6---6----------6------------8---------------------
----6-------6------6---6--------6---8--------6------5---
--6--------------6-------6----8-------8----6------5-----
---------------4------------6------------4------3-------
--------------------------------------------------------
                                     
----------------------------
--------6------------8------
------6---6--------8---8----
------------6----8-------8--
----8----------6------------
--6-------------------------


(4)
--------------
--------------
--6--5--------
--------6-----
-----------6--
--------------


(5)
-----------------------------------------------------------------
--------------------------------------------------------9-----9--
-6-8-6-8-6--6-8-6-8-s10-8---6-8b10r8-8b10r8-6---6--8b10---b10----
--------------------------8-------------------8------------------
-----------------------------------------------------------------
-----------------------------------------------------------------

-----11-11-13-11-9---------
--11-----------------------
-------------------20b23---
---------------------------
---------------------------
---------------------------


(6)
---------------------------------------------------------
--------7-6h7p6-------6--------9-9-9-7-7-6-6h7p6---------
----6-----------8-6-8---8------------------------8-6-8---
--8---8-------------------6------------------------------
---------------------------------------------------------
---------------------------------------------------------

-------9-9---------------------------------------16-16-------16-16-----------
--9b11-----9b11-6-7-9----9b11r9------14-16-16b18-------16b18-------16b18r16--
----------------------10----------15-----------------------------------------
-----------------------------------------------------------------------------
-----------------------------------------------------------------------------
-----------------------------------------------------------------------------


(7)
--6------6-----6---4-----4-----4---6-----6-----6---9-8-9-11----
----6------6-----6---6-----6-----6---6-----6-----6-------------
------6------6---------6-----6---------6-----6-----------------
------------------------------------------------------------8--
---------------------------------------------------------------
---------------------------------------------------------------


(8)
---------------------------------------------------------------------------
------------------------------------------------------6-7-6-7-9------------
--6-8-6-8-6---6-8-6-8-s10-8---6-8-6-6-----6-6----6-8--------------6-5------
--------------------------------------6-8------8----------------------6----
------------------------------------------------------------------------6--
---------------------------------------------------------------------------

-------------------------------------------------------------------
------------------------------------------------11--9--11--13--14--
--6-8-6-8-6---6-8-6-8-s10-8---6-8-6-6-----6-6----------------------
--------------------------------------6-5--------------------------
-------------------------------------------------------------------
-------------------------------------------------------------------

No comments:

Post a Comment