July 30, 2011

JUNIEL - We're Together

| D  G | Bm7  A | D  G | Bm7  A |

| D  G | Bm7  A |
kikoete masu ka kono koe watashi ga todokeru melody
| D  G | Bm7  A |
kimi dake no tame ni for you (pretty boy)
| D  G | Bm7  A | D  G | Bm7  A |
watashi wo mite waratte kureru sono yasashii egao ni aitai

| G  Bm7 | A | G  Bm7 | A |
itsumo itsumademo sotto kikaseru kara kimi ni todoke

| D  G | Bm7  A | D  G | Bm7  A |
watashi no suki na kiiroi kutsu wo haite kimi ni hashitte yuku kara
| D  G | Bm7  A | D  G | Bm7  A |
ookii kimi no senaka mukete imademo sugu kokuhaku shitai yo
| Em7 | A7 | Em7 | A |
Forever love with you. Yes, we are together for a long long time daisuki

| D  G | Bm7  A | D  G | Bm7  A |

| D  G | Bm7  A |
wakatte kure masu ka kono kimochi I wanna going to you
| D  G | Bm7  A |
kono melody kiite mite yo give it to you
| D  G | Bm7  A | D  G | Bm7  A |
watashi no atama wo nadete kureru sono ookii te no nukumori I love it

| G  Bm7 | A | G  Bm7 | A |
itsumo itsumademo zutto uta itai kara kimi ni todoke

| D  G | Bm7  A | D  G | Bm7  A |
kimi no maede uta itai kimi wo omoi nagara kaita melody wo
| D  G | Bm7  A | D  G | Bm7  A |
aoi sora no shita de te wo tsunaide issho ni uta tte kure masu ka
| Em7 | A7 | Em7 | A |
Forever love with you. Yes, we are together I always be with you daisuki yo

| D  G | Bm7  A | F#m7  Bm7 | G  A |
La La La La La La La

| Em7 | A | D    A | Bm7 | 
kono mama jikan ga tomatte you are my brilliant sunshine
| Em7 | F#m7/A | G | Asus4  A | A |
issho ni itai kono negai kanaete moraeru no ka na

| D  G | Bm7  A | D  G | Bm7  A |
watashi no suki na kiiroi kutsu wo haite kimi ni hashitte yuku kara
| D  G | Bm7  A | D  G | Bm7  A |
aoi sora no shita de te wo tsunaide issho ni uta tte kure masu ka
| Em7 | A7 | Em7 | A |
Forever love with you. Yes, we are together I always be with you we are together

| D  G | Bm7  A | D  G | Bm7  A | D  G | Bm7  A | D  G | A7 | A7  N.C. |

| D |
daisuki

July 10, 2011

FTIsland - SATISFACTION

(1) | B  Db |
Shiawase no imi wo sagashite ita
| Bbm7  Ebm7 |
Dokoka ni aruto omotta
| Abm7  N.C. |
Soba ni atta noni

(2) | Gb  Db  Db/B | Ebm7  Db  Db/Bb  Db |
| Gb  Db  B | Ebm7  Db  B[M7] |

| BM7 | GbM7 |
Mayonaka sugi potsuri potsuri
| BM7  Db | Ebm7  (3) |
Machi no akari mata kiete ikuyo
| BM7  Db | Ebm7  Db  Cm7b5 |
Yume ga samete nemurenai kono heya mo
| BM7  Db | Gb |
Mabushii yakei no kakera

(4) | Bm7 | GbM7 |
Chijou no seiza ni kasanete
| D  E  AM7 |
Kimi no egao egakuyo
| DM13  Db7 | Gb  E  Ebdim |
Ashita ga kyou eto kawaru maeni
| Bm7  Dbm7 | Gb |
Namida ga ai ni kawatteku

| B  Db |
Shiawase no imi wo sagashite ita
| Bbm7  Ebm7 |
Mienai hoshi miteita
| Abm7  Bb7  Ebm7  Ebm7-Dm7-Dbm7-Gb7 |
Kimi no te wo hanashite wa
| Cm7b5  BM7 | Bbdim  Eb |
Ai no imi wo shirazu ni sagashite itanda
| Abm7  Db | B[M7] | BM7 |
Soba ni atta noni

| BM7 | GbM7 |
Hoho wo naderu yoru no kaze wa
| BM7  Db | Ebm7  (3) |
Chikyu ga mawatteru akashi nandarou
(5) | BM7  Db | Ebm7  Db  Cm7b5 |
Ugokidaseba kazamuki ga kawaru koto
| BM7  Db | Eb7sus2 |
Oshiete kureteru no kana

| Eb7sus2-Eb7sus2-Ebm7    B-B-Db-Db-Ebm | 3x
| Eb7sus2-Eb7sus2-Ebm7    B-B-Db-Db-Db |

| B  Db |
Shiawase no imi wo sagashite ita
| Bbm7  Ebm7 |
Yume no shima wo mezashite
| Abm7  Bb7  Ebm7  Ebm7-Dm7-Dbm7-Gb7 |
Ate no nai tabi shite wa
| Cm7b5  BM7 | Bbdim  Eb |
Ashita no kaze ni hukare nagasarete itanda
| Abm7  Db | (6) Ebm  Db |
Toki no namima de

| BM7  Abm7 | Bbdim  Cm7b5 | Db  Ddim |

| Ebm  Gb |
Nani wo tenishite nani wo nakushita
| Gb  Abm7 |
Nani wo seotte nani wo otoshita
| BM7  Cm7b5 | Db7  Ddim | (7)
Daiji na mono hodo arihurete ite kizukenai mama

| B  Db |
Shiawase no imi wo sagashite ita
| Bbm7  Ebm7 |
Dokoka ni aru to omotta
| Abm7  Bb7  Ebm7  Ebm7-Dm7-Dbm7-Gb7 |
Jibun dake wo shinjite wa
| Cm7b5  BM7 | Bbdim  Eb |
Ai no imi wo shirazu ni sagashite itanda
| Abm7  Db | Ebm  E |
Soba ni atta noni
| Abm7  Bbdim | B  Db |
Yoru wo koete
| Bm |
Aini ikitai

(2) | Gb  Db  Db/B | Ebm7  Db  Db/Bb  Db |
| Gb  Db  B | Ebm7  Db  B |


Chords in brackets are for second guitar. Numbers in parentheses indicate tabs.
Word documents: Chords, Tabs

__________________________________________________________________________________

TABS

 
Tab 1:

---------11------9------------------------11------9-----------------------11---
-----11------11-----9-----------------11------11-----9-----------------11---11-
-13--------------------11--10s11--13--------------------11--10s11--13----------
-------------------------------------------------------------------------------
-------------------------------------------------------------------------------
-------------------------------------------------------------------------------

Tab 2:

----------------------------------------------------
----------------------------------------------------
----------------------------------------------------
--11--9--8----------8--8b9r8--------8---------------
------------11--11------------11-------11--9--8--9--
----------------------------------------------------

Tab 3:

-------------------
-------------------
--s10--11--10------
---------------11--
-------------------
-------------------

Tab 4:

Bm7                           GM7
-----------------------------------------------------------------
--------7-------------7---------------11----------------11-------
-----------7-------------7----10----------10----10----------10---
--7-------------7-----------------11----------------11-----------
-----9-------------9---------------------------------------------
-----------------------------------------------------------------

D               E             AM7            
------------------------------------9-------------9------
--------7-------------9-------9--------9----9--------9---
--7--------7----9--------9-------9-------------9---------
-----7-------------9-------------------------------------
---------------------------------------------------------
---------------------------------------------------------

DM13            Db7             Gb   E   Ebdim 
--------7--------------13---------------------
--7--------7----9----------9------------------
-----6-------------10-----------11---9---8----
--------------------------------11---9---8----
---------------------------------9---7---6----
----------------------------------------------

Tab 5:

---------------------------------------------------------------------9-9-9---
----------------------------------------------------------------7-9----------
-----------------------------------------------------------3-6---------------
4-4h6-4-4s8-4--6--6-6--8-6-6-6s8-6--4--4-4--4-4h6-4-4s8-4--------------------
-----------------------------------------------------------------------------
-----------------------------------------------------------------------------

Tab 6:

Ebm
-----6---------------------------------
-----------9-----7-----6-----7-----7---
--8-----8-----8-----8-----8-----8------
---------------------------------------
---------------------------------------
---------------------------------------

Tab 7:

---------------------------
---------------------------
--8--6--6--4--4------------
-----------------8--6--4---
---------------------------
---------------------------