August 7, 2011

FTIsland - 고백합니다 (Confession)

| C  G | Am7  Em7 | FM7 | G7sus4 |

--10h12--12--12--10--8--8h10---------7h8--8--8--7--5--5h7--3--0---
------------------------------8--8--------------------------------
------------------------------------------------------------------
------------------------------------------------------------------
------------------------------------------------------------------
------------------------------------------------------------------

------------------------------7h8--8s10------
--8h10--10--10--8------8h10--------------8---
-------------------10------------------------
---------------------------------------------
---------------------------------------------
---------------------------------------------

| C  G | Am7  Em7 |
ijen nae mam gobaek hamnida haneulmani nae mam amnida
| F  C/E | Dm7  G7sus4 |
jojunghan mankkeum akkyeoon naeui jinshimeul
| C  G | Am7  Em7 |
malharyeoni nunmul namnida chueokdeuri seuchyeogamnida
| F  C/E | Dm7  G7sus4  C | C  Em7/B
geudae animyeon eopseosseul oneul imnida

| Am7  Em7 |
cheoeum mannatteon geu nal nan
| FM7  C  Em7/B |
eojeolpeugo tto eoryeotjyo
| Am7  Em7 | FM7 |
jikkyeobwa dallan nae mareul midgo
| G7sus4 |
gidaryeojun shigandeul

| C  G | Am7  Em7 |
ttaeron nae shilsuro maeum apuge haetjyo maebeon nal tathaji anhgo
| F  C/E | Dm7  G7sus4 |
gwaenchanga gwaenchanha useumyeo naege himi dweeotjyo
| C  G | Am7  Em7 |
bappeudan pinggyero seounhage hal ttaemyeon weonmangdo haesseul beobhande
| F  C/E | Dm7  G7sus4 | Am7  Em7 |
geokjeongmal geokjeongmal charari wirohamyeo mideojun geudaen geojyo

| F    G | Am7  Em7 | FM7 | G7sus4 |

| C  G | Am7  Em7 |
yeomchieobsi barae bobnida geudae maeum yeong wonhagireul
| F  C/E | Dm7  G7sus4  C | C  Em7/B
geudaeleul wihae nan maeil deo nolyeog halgeyo

| Am7  Em7 |
cheoeum mannassdeon geu nal nan
| FM7  C  Em7/B |
eoseolpeugo tto eoryeotjyo
| Am7  Em7 | FM7 |
jikyeobwa dallan nae mareul midgo
| G7sus4 |
gidalyeojun sigandeul

| C  G | Am7  Em7 |
ttaeron nae shilsuro maeum apuge haetjyo maebeon nal tathaji anhgo
| F  C/E | Dm7  G7sus4 |
gwaenchanga gwaenchanha useumyeo naege himi dweeotjyo
| C  G | Am7  Em7 |
bappeudan pinggyero seounhage hal ttaemyeon weonmangdo haesseul beobhande
| F  C/E | Dm7  G7sus4 | C    Em7/B |
geokjeongmal geokjeongmal charari wirohamyeo mideojun geudaen geojyo

| Am7  Em7 | FM7  C |
geudaewa naega mandeun chueokdeul ulgo udeun shigandeul
| Dm7  Dm7/F# | G7sus4 |
jukneun sunganedo gieokhalkeyo

| C  G | Am7  Em7 |
malhan jeok innayo geudaereul saranghamnida heunhan geu dan eoro bakke
| F  C/E | Dm7  G7sus4 |
saranghae saranghae geumal bakke dameul mari eobseoseo
| C  G | Am7  Em7 |
dasi marhabnida geudael saranghabnida tteugeoun nae mameul dameun
| F  C/E | Dm7  G7sus4 | C  G |
oneuleui gobaegeul yeongweonhi geudaen itji marayo saranghaeyo

| Am7  Em7 | FM7 | G7sus4 | CM7 |

--8--10--10s12--12s8--8--8s10----------------8--8s12--8--8h10---------
-------------------------------8--8---8--10--------------------8--8---
----------------------------------------------------------------------
----------------------------------------------------------------------
----------------------------------------------------------------------
----------------------------------------------------------------------

--------------------------------5--8--8h10---------
--8--5--6----5--5h6--3--3h5--6--------------8--8---
---------------------------------------------------
---------------------------------------------------
---------------------------------------------------
---------------------------------------------------

4 comments:

  1. Thank you so much for sharing all these chords :)
    I love FT Island's songs so much :)

    ReplyDelete
  2. Thanks a lot!!! i love FTISLAND, and thanks for your chords, i use them to play the ukulele ^U^~~~

    bee

    ReplyDelete
  3. what is the finger picking technique for this song?

    ReplyDelete
  4. hahahahahahaha I can play it but I have the wrong type of guitar so it sounds funny hahahahahahahaha

    ReplyDelete